Trouble with Line Spacing

There is a bit of a bug in wordpress. When you copypaste your tab in, it will automatically add or remove newlines, creating ugly ugly text. (In the preformatted font anyway)
To fix:
Go to the “HTML” tab while making/editing the post. If you’ve set it to preformatted, there will be a little thing like this:

<pre>

You need to replace that with:

<pre style=”text-align:justify;white-space:normal;”>

And it should stop ruining your life 😀

 

Of course this  only happens sometimes.

Mozart Symphony Number 40

Mozart Symphony Number 40
(You'll know it when you hear it)
|-------------------3-3-2-0-0-------------|
|-1-0-0-1-0-0-1-0-0-----------3-1-1-0-----|
|-------------------------------------2-2-|
|-----------------------------------------|

|-------------------2-2-0-----------------|
|-0-----0-----0-----------4-4-1-0-0-------|
|---2-2---2-2---2-2-----------------2-0-0-|
|-----------------------------------------|

|-3-2-2-5---2-0---3-2-2-5---2-0-3-|
|---------4-----0---------4-------|
|---------------------------------|
|---------------------------------|

|-2-0-----------6-7-6-7-6-7-6-7-6-7-------|
|-----3-1-0---0---------------------------|
|-----------3-----------------------------|
|-----------------------------------------|

I found this tab here:
http://ukulelehunt.com/ukertabs/2011/05/08/mozart-symphony-no-40/#comments
But it had some problems. Either that or I've heard a different rendition.
Either way, mine is the same as his, with a few minor note changes and a large
difference before the 676767 bit.

Original Song:

Hailfire Peaks (Icy Side) Tab

Another from banjo kazooie
|-------------------------------|2-2-2-2-2-3--------------------
|----0-3-4-3----00-3-4-3-0------|0-----------3-3-34323-0--------
|0---------------------------0--|0-----------------------343234-
|-------------------------------|0------------------------------

|-------------------------------|2-2-2-2-2-3-----------2-3------
|----0-3-4-3----00-3-4-3-0------|0-----------3-3-63636----------
|0---------------------------0--|0-------------------------0-0--
|-------------------------------|0------------------------------

Original:

Spiral Mountain

Spiral Mountain Tab
Intro:
|--------------0-------
|3---3---3-3-----3-----
|--------------------2-
|---------------------

Body:
|-3---3---5-3-------0-----0--2--3|-2---0-----------0----------
|-------------3-3-------3--------|---------3---3-----3-0-1---0
|--------------------------------|-------------------------2--
|--------------------------------|----------------------------

|----0--2--3--3--5-3-----7--5-7--5--3|-3-4-5--5--7-5--0--2-0-2-0-----0-2
|-3------------------3-3-------------|---------------------------3-3----
|------------------------------------|----------------------------------
|------------------------------------|----------------------------------

|-3--3--5-3------3--3--5-3--------|-3--3--5-3------3--3--5-6-5-3-0--
|-----------3-3--------------4--4-|-----------5-5-------------------
|---------------------------------|---------------------------------
|---------------------------------|---------------------------------

|-3--3--5-3------2-0-2-0-----0-2|-3--3-3--2-3--0--3-3--2-3-----------0----
|-----------3-3----------3-3----|--------------------------3--3--3-3---3--
|-------------------------------|----------------------------------------2
|-------------------------------|-----------------------------------------
Repeat for clarinet
Flute part
          /\/\             /\/\          /\/\
|-----0---3---------------------|-----0---3-----2-2-0-0-2-2-----
|-1--3--1--------------0---3----|-1--3--1-------------------3-3-
|------------------0--2--0------|-------------------------------
|-------------------------------|-------------------------------
          /\/\             /\/\ 
|-----0---3---------------------|-----0-------0-------02---2-5-10
|-1--3--1--------------0---3----|-1--3--1-2-3---2-3------3------
|------------------0--2--0------|-------------------------------
|-------------------------------|-------------------------------
Repeat top part again
Infinite loop

Spiral Mountain is the starting area in Banjo-Kazooie.
That game had some spectacular music. I like to play this
In the morning with the sun on my face.
Original Tune:

Game Of Thrones Theme

by Ramin Djawadi

If the long bars are too hard, i'd suggest repeating the
last note of the short bar to the beat of the long bar :)

|-10------6-8-10---6-8--------|
|-----8----------8----10------|
|-----------------------------|
|-----------------------------|

|--------------------------------------------------------|
|-----6-8-10-------6-8-10-------6-8-10-------6-8-10------|
|-7-7----------7-7----------7-7----------7-7----------7-7|
|--------------------------------------------------------|

|-8------6-5-8-------6-5-----|
|-----6---------6--------8---|
|----------------------------|
|----------------------------|

|-----------------------------------------------------|
|-------6-8---------6-8---------6-8---------6-8-----8-|
|-7-7-8-------7-7-8-------7-7-8-------7-7-8-------7---|
|-----------------------------------------------------|


|-10------6-8-10---6-8--------|
|-----8----------8----10------|
|-----------------------------|
|-----------------------------|

|--------------------------------------------------------|
|-----6-8-10-------6-8-10-------6-8-10-------6-8-10------|
|-7-7----------7-7----------7-7----------7-7----------7-7|
|--------------------------------------------------------|

|-8------5-6-5---------------|
|-----6---------6-8----------|
|----------------------------|
|----------------------------|

|-----------------------------------------------------|
|-------6-8---------6-8---------6-8---------6-8-----8-|
|-7-7-8-------7-7-8-------7-7-8-------7-7-8-------7---|
|-----------------------------------------------------|

(Repeat the above lots)

|-3--1----------------------|-3--1-------------------------|
|---------4-3---1-----1-3---|---------4-3---1--------------|
|-------0---------3-3-------|-------0---------3-3-2-0------|
|-----------------(1)-------|-----------------(1)----------|
                   ^This note is for a low G uke only

(This is the bass part for Low-g uke):
|-----------------------------------------|
|-----------------------------------------|
|-0---------0---------0---------0---------|
|---0-0-1-3---0-0-1-3---0-0-1-3---0-0-1-3-|


(and this is the bass part for High-g uke):
|-3-------1-3-------1-3-------1-3-------1-|
|---3-3-4-----3-3-4-----3-3-4-----3-3-4---|
|-----------------------------------------|
|-----------------------------------------|


If you play the game of thrones, you win, or you break a string.
Original Song: 

the actual original video keeps getting copyright
claimed and taken down, so this cover will have to do.

The original is on grooveshark here:
http://grooveshark.com/#!/s/Game+Of+Thrones/3JwFzf?src=5