Take On Me Riff

by A-Ha
It's in tune with these chords:
http://www.chordie.com/chord.pere/hem.passagen.se/surftore/text/lyrics/a-ha/take_on_me_pro.txt
but it's easily transposed :)

|-----------------0-0-1-3-1-1-1---------------------|
|-3-3-------1-1-1---------------1---3-3---3-1-1-3-1-|
|-----3-0-0-----------------------3-----------------|
|---------------------------------------------------|

Actual song in key (requires Low-G):
|---------------------0-2-0-0-0---------------------|
|-2-2-------0-0-0-4-4-----------0---2-2---2-0-0-2-0-|
|-----2---------------------------2-----------------|
|-------4-4-----------------------------------------|

Original Song:

Owl Theme from Legend Of Zelda

By Koji Kondo
LOW-G ONLY

|----------|
|----------|
|-2---0-0-2|
|----------|

A|---------------------------3-1-----------------|
E|-------------------1-3---3-----4-3-1-----------|
C|---------------2-3-----0-------------3-2-0-----|
G|-5---4-5---4-5-----------------------------4-0-|

|---------------------------------------------|
|-------------------1-3---1-4-3-1-------------|
|---------------2-3-----0---------3-2-2---0-0-|
|-5---4-5---4-5-------------------------------|

(repeat)

|-1-------1-------1---6-5-3---1---3-----1-----------|
|-----3-4-----3-4---------------------4---4---3---4-|
|---------------------------------------------------|
|---------------------------------------------------|

|---------------------5-3-1-----------1-------------|
|-1-------1-------1-----------4---4-----4-3---1---3-|
|-----2-3-----2-3-----------------------------------|
|---------------------------------------------------|


|-1-------1-------1---6-5-3---1---3-----1-----------|
|-----3-4-----3-4---------------------4---4---3---4-|
|---------------------------------------------------|
|---------------------------------------------------|


|---------------------5-3-1-----------------------|
|-1-------1-------1-----------4---3---1---1-------|
|-----2-3-----2-3-----------------------3-----3-3-|
|-------------------------------------------------|

Original Song:

Low-G propaganda

Seriouly guys, you should invest in a low-g string 😀 They’re on ebay for under 5 dollars! Find one that somewhat matches your other strings and wind it on! It just makes everything better 😀 The chords sound fuller, you can provide the bass at ukulele jam sessions, you have an extra 5 notes, which is REALLY handy. Think of all those songs you tried to pick out and said “Aaah damn, i need just another 2 frets down to play that!”. Problem solved!

Right now I’m using Aurora strings in blue. They’re nylon, made by aquila, and they’re bright blue! Here’s the website, you an get them in a whole bunch of colours, and they sound really good! http://stringsbyaurora.com/

For my low-G string, I’ve got a wound nylgut low-G by aquila, and it just sings 😀