Jolly Rogers Lagoon Theme from Banjo-Tooie

This is correctly tuned, but has ONE note that
requires a low-G tuning. If you transpose the whole song
up by one note, then you can squeeze that note up into
bottom C, but then you'll need to have a deeper uke than
soprano, as you'll need 13 frets. You can prolly just 
fake that note though lol.

Chorus:
|-----------------------------------|
|-----------1-3-5-------------3-5-7-|
|-0-2-4-2-0---------2-4-6-4-2-------|
|-----------------------------------|

|-----------0-2-3---3-2-3-5-3-------|
|-0-2-4-2-0-------------------------|
|-----------------------------0-----|
|-----------------------------------|

(Chorus x2)

|-------------------------------0-------3-2--|
|-1-0-1-3-0---------------0---0---3-0-1-----3|
|-----------0-2-0---2-0-----2----------------|
|-----------------4--------------------------|

|-------------------------------0-------3-2-5|
|-1-0-1-3-0---------------0---0---3-0-1------|
|-----------0-2-0---2-0-----2----------------|
|-----------------4--------------------------|

(Chorus)

|-------------------------------------------|
|---0-2--------0-2--------5-4-5-4-5-2-------|
|-2-----3--0-2-----3--0-2-------------------|
|-------------------------------------------|

|---------------------------0-2-0-2-0-2-0---|
|---0-2--------0-2--------2---------------2-|
|-2-----3--0-2-----3--0-2-------------------|
|-------------------------------------------|

|-------------------------------------------|
|---0-2--------0-2--------5-4-5-4-5-2-------|
|-2-----3--0-2-----3--0-2-------------------|
|-------------------------------------------|

|---------------------------------0-2-5-----|
|---0-2--------0-2--------0-2-0-2-----------|
|-2-----3--0-2-----3--0-2-------------------|
|-------------------------------------------|

(I like to whistle this next part as well)
(hope you can finger pick with thumb and index!)

|---0---2---0---2---0---2---5---3---5---3---5---3-|
|-------------------------------------------------|
|-2---2---2---2---2---2---3---3---3---3---3---3---|
|-------------------------------------------------|

|---0---2---0---2---0---2---5---3---5---3---5---3-|
|-------------------------------------------------|
|-2---2---2---2---2---2---3---3---3---3---3---3---|
|-------------------------------------------------|

(This next bit is like the superchorus. Its a duet
with two instruments interrubpting each other. Imma
do my best to compile it into one instrument)

|-------------------------------2-4-6-4-2-|
|-----------1-3-5-3-1-2-4-6-4-2-----------|
|-0-2-4-2-0-------------------------------|
|-----------------------------------------|

|-3-5-7-5-3--4-6-7--7-9-11-12-11-7--|
|-----------------------------------|
|-----------------------------------|
|-----------------------------------|

Original Song:
Advertisements

Pendulum – Fasten Your Seatbelts

LOW-G TUNING ONLY

|-----0-1---------------|
|-3-3-----3-------------|
|-----------2-1-1-------|
|-----------------3-2-0-|

|---0-1---------------|
|-3-----3---------2-3-|
|---------2-1-1-2-----|
|---------------------|

(repeat as necessary)

|---0-1---------------5-10-|
|-3-----3---3-3-3-5-6------|
|---------2----------------|
|--------------------------|
OR
|---0-1-----------0-----10-|
|-3-----3---3-3-3-----10---|
|---------2---------10-----|
|--------------------------|

Original Song (starts at 1:01):

New Strings

Hello everyone 😀
I have just swapped the strings on my ukulele to low-G tuning. It makes the chords sound richer without changing the fingering,
you have another 5 notes on the uke, and you can use the lower string and the higher string together and make a bass and treble…thing 😀

If you want to try low-G tuning before buying strings, grab a guitar and capo the 5th fret. the bottom 4 strings make a low g uke.

I bought these strings, and they’re good:

http://cgi.ebay.com.au/ws/eBayISAPI.dll?ViewItem&item=130709259211#ht_979wt_1163

From now on, all my tabs will be in low-G tuning.

If you are some kind of ukulele miracle worker, go to Iernon’s website:
http://iernon.com/Tabs.html
This are some of the best tabs i’ve seen, but they’re all incredibly hard (for me at least).