Saria’s Song

|---0-2-----0-2---------7-5---2-3-2---------------|
|-1-------1---------5-7-------------3-0-----0-3-0-|
|-----------------5-----------------------2-------|
|-------------------------------------------------|

|---0-2-----0-2---------7-5---2-3-7-3-----3-------|
|-1-------1---------5-7---------------3-----3---0-|
|-----------------5---------------------------2---|
|-------------------------------------------------|

|-----------0-2---3-2-----------------0-2---3-5-7-|
|---0-1---3-----------0-------0-1---3-------------|
|-2-------------------------2---------------------|
|-------------------------------------------------|

|-----------0-2---3-2-----------------0---2-0-7-8-5-7-|
|---0-1---3-----------0---0---1-0-3-1---3-------------|
|-2-------------------------2-------------------------|
|-----------------------------------------------------|

(---7-7-----7-7----7---7---)
(-0-------0------0---0---0-)
(--------------------------)
(--------------------------)

PLEASE NOTE:
I didn't write this one from scratch, it's a cut down version of this:

http://uke.freehostia.com/tabs/sarias_song.txt

Shadowflare wrote the more complicated version. I assume it sounds great, but
there a chunks of it I dont get, so I'v simplified it here.

Original Song:
http://www.youtube.com/watch?v=uEWWhzrZh18&feature=fvwrel

Cave Story Main Theme

|---3---3---3---3---3---3---3-------|
|-3---3---2---2---1---1---0---0-1-2-|
|-----------------------------------|
|-----------------------------------|

|---3---3---3---3---3---3-6-5-3-----|
|-3---3---2---2---1---1-------------|
|-----------------------------------|
|-----------------------------------|

|---0-0-1-3-1-0----1-3-1-0-----1-1-0---0---3-3-0---|
|-3-------------3----------3---------3---1---------|
|-----------------------------3--------------------|
|--------------------------------------------------|

|---0-0-1-3-1-0----1-3-1-0-----1-1-0---0---3---0---|
|-3-------------3----------3---------3---1---1-----|
|-----------------------------3--------------------|
|--------------------------------------------------|

|---0-0-1-3-1-0----1-3-1-0-----1-1-0---0---3-3-0---|
|-3-------------3----------3---------3---1---------|
|-----------------------------3--------------------|
|--------------------------------------------------|

|---0-0-1-3-1-0----1-3-1-0-----1-1-0---0---3---0---|
|-3-------------3----------3---------3---1---1-----|
|----------------------------3---------------------|
|--------------------------------------------------|

|-5-3-4-5-7-10-12-10-10-12-10-8--------------------|
|-------------------------------8-10-11------------|
|--------------------------------------------------|
|--------------------------------------------------|

|----------------------6-5-5-3-5-3-5-3-2-----------|
|-11-10-11-10-11-10-11-----------------------------|
|--------------------------------------------------|
|--------------------------------------------------|

|-7-5-6-7-9-10-12-10-10-12-10-15-3-5-7-12-12-10-12-|
|--------------------------------------------------|
|--------------------------------------------------|
|--------------------------------------------------|

Original Song:

Pistolero by Juno Reactor

This isn't finished yet, there are one or two more riffs for me to make, but they'll be up soon

//Riff one:
|-8-3-3----1-3-4-3------------1-----------------|
|------(1)----------3-3-1-3-4---4-3-1-0-1-------|
|---------------------------------------------0-|
|-----------------------------------------0-0---|

//Riff two:
|-3-1-3-1-3-1-------3-1-3-1-3-1-4-3-1-3-1-3-1-3-|
|-------------3-2-1-----------------------------|
|-----------------------------------------------|
|-----------------------------------------------|

|-1------------------------1---1---1------------|
|---3-2-1------1---1---1-3---3---3--------------|
|----------0-3---3---3--------------------------|
|-----------------------------------------------|

Original Song:

Orpheus in the Underworld / CanCan

|-----------3-3-3-5---------------------|
|-----6-5-3---------5-6---------6-5-----|
|-5-7-------------------7-7-7-7-----7-5-|
|---------------------------------------|

|-8-7-5---------|
|-------8-6-5---|
|-------------7-|
|---------------|

|-----------3-3-3-5---------------------|
|-----6-5-3---------5-6-3-3-3-3-6-5-----|
|-5-7-------------------------------7-5-|
|---------------------------------------|

|-----------|
|-8---5-----|
|---7---5-0-|
|-----------|

Original Song:

Riverside

|-7-7-7-7-12-7-10-7-9-10-7-9-----0-| 
|----------------------------8-7---|
|----------------------------------| 
|----------------------------------| 
Original Song: