Goodnight My Someone

Goodnight My Someone
from The Music Man
This is a song very close to my heart :)

Like many of the songs I have tabbed recently,
this song requires low-G tuning.

(Intro)
|-------------------------------------------2-|
|---2-----2-----2-0---2-0---2-0---2-0---2-----|
|-----3-----3-1-----1---------------------3---|
|-4-----4-----------------3-----3-----4-------|

|---2-------------------4-1-------------|
|-2---2---------4-2---2-----2-------4-2-|
|-------3-1-------------------4-1-------|
|-----------4-3-------------------4-----|

|---6-2-----------2---1-----1-4-2---4---|
|-2-----2-----0-4-------4-2-------4-----|
|---------3-----------------------------|
|-----------4---------------------------|

|---2-------------------4-1-------------|
|-2---2---------4-2---2-----2-------4-2-|
|-------3-1-------------------4-1-------|
|-----------4-3-------------------4-----|

|---6-2-----------2---1-----1-4-2-1-2---|
|-2-----2-----0-4-------4-2-------------|
|---------3-----------------------------|
|-----------4---------------------------|

|---------4-2-----------------6-4-1-2-----|
|---4-3-4-----4-5-4-5---5-4-5-------------|
|-----------------------------------------|
|-4-------------------4-------------------|

|---------4-2---------2---2-1-2-4---------------|
|---4-3-4-----4-2-1-2-------------4-6-7-2-4-6---|
|---------------------------------------------4-|
|-4---------------------------------------------|

|---2-------------------4-1-------------|
|-2---2---------4-2---2-----2-------4-2-|
|-------3-1-------------------4-1-------|
|-----------4-3-------------------4-----|

|---6-2-----------2---1-----1-4-2-1-2---|
|-2-----2-----0-4-------4-2-------------|
|---------3-----------------------------|
|-----------4---------------------------|

|-------6-|
|-4-2-2---|
|---------|
|---------|

Original Song:

Advertisements