Last Resort

By Papa Roach
High and Low-G acceptable!
Please note, this tab may have been written on ukulele-tabs.com,
but i've just moved to england and for some reason
that website is banned here :( So if this is a repost
i'm sorry, but I swear I tabbed this myself :)

The chords can be found here:
http://www.guitaretab.com/p/papa-roach/243477.html
The famous riff is below :D

|---------2---------------2-------|
|-0-3-2-3---3-2-3---3-2-3---3-2-3-|
|-----------------2---------------|
|---------------------------------|

|---------2-----------------------|
|---3-2-3---3-2-3-----------------|
|-0---------------2-2-2---2-2-2---|
|---------------------------------|

Original Song: