Hailfire Peaks (Icy Side) Tab

Another from banjo kazooie
|-------------------------------|2-2-2-2-2-3--------------------
|----0-3-4-3----00-3-4-3-0------|0-----------3-3-34323-0--------
|0---------------------------0--|0-----------------------343234-
|-------------------------------|0------------------------------

|-------------------------------|2-2-2-2-2-3-----------2-3------
|----0-3-4-3----00-3-4-3-0------|0-----------3-3-63636----------
|0---------------------------0--|0-------------------------0-0--
|-------------------------------|0------------------------------

Original:

Advertisements

One response to “Hailfire Peaks (Icy Side) Tab

  1. Pingback: Hailfire peak | Dinsersfarm

Leave a Reply

Fill in your details below or click an icon to log in:

WordPress.com Logo

You are commenting using your WordPress.com account. Log Out / Change )

Twitter picture

You are commenting using your Twitter account. Log Out / Change )

Facebook photo

You are commenting using your Facebook account. Log Out / Change )

Google+ photo

You are commenting using your Google+ account. Log Out / Change )

Connecting to %s