Summertime

By Gershwin
I found this tab for the song on Scorpex's website here:
http://scorpexuke.com/pdffiles/Summertime.pdf
And its great! One of the best, I love it. What I like to do
is play the first verse of that, then play just the plain
summertime tab (below), and then do his second verse. 

PS: Definitely check out scorpex if you haven't already!

(LOW G VERSION) (Like it better, and its in key :D)
|-0---0-------0-------0---------------|
|---1---3-1-3---1-------1-3-1-1-3-1-0-|
|-----------------2-------------------|
|-------------------2-----------------|

|-0---0-------0-------------------0-------|
|---1---3-1-3---1---------------1---3-1---|
|-----------------2-----0---0-2---------2-|
|-------------------2-2---2---------------|


(HIGH G VERSION) 
|-3---3-------3-------3---------------|
|---4---6-4-6---4-------4-6-4-4-6-4-3-|
|-----------------5-0-----------------|
|-------------------------------------|

|-3---3-------3-------------------3-1-----|
|---4---6-4-6---4-------------1-4-----4-1-|
|-----------------5-0-0-3-0-3-------------|
|-----------------------------------------|

Original Song: ( I prefer my summertimes faster and more punchy
than this version myself )

Advertisements

Soft Kitty

By Big Bang Theory
:3 Its obvious, i'm sure you could all figure this
one out yourselves in a few moments. I mostly tabbed
this so that you'd see it and go "Oh, thats something
to play for the lolz!"


|-3-0-0-1-----------0-1-3---3-0-0-1-------------|
|---------3-3---1-3-----------------3-3---1-3-1-|
|-----------------------------------------------|
|-----------------------------------------------|

Original Song:

Gangnam Style

By PSY
I simply cannot stop watching this :D
Works on low and high g, since we dont use the top string!

The ">" means slide.

Version 1 is for tenor/bass:
|-----------------------------------------|
|-----------------------------------------|
|-0>12-12-0>12-12>15---0>12-12-12-12-11>0-|
|-----------------------------------------|

Version 2 is for soprano/concert:
|-----------------------------------------|
|--------------9>11-----------------------|
|-0>12-12-0>12---------0>12-12-12-12-11>0-|
|-----------------------------------------|


Original Song:

Mr.Sandman

By The Chordettes
This is in F, and is easily transposed :D

|-------7-5--------------8-7-|
|---5-8-----8-5-----6-10-----|
|-5-------------5-7----------|
|----------------------------|

You can find the chords to the main song
at doctor Uke's website. I wrote it in F
so that you could play it with this version!

http://doctoruke.com/mistersandman-F.pdf

Original Song:

Ghostwriter

By RJD2
The actual guitar part was not written by me, I got
it from here:
http://www.ukulele-tabs.com/uke-songs/rjd2/ghostwriter-uke-tab-16283.html

I wrote the trumpet part though :D

#Intro

A----3--3-------3--3-------3--3-------3--3------
E----4--4-------4--4-------4--4-------4--4------ 
C--3---3------3---3------2---2------2---2-------
G-----------------------------------------------  (x3)

A----3--3-------3--3-------3--3-------3--3------
E----4--4-------4--4-------4--4-------4--4------
C--3---3------4---4------5---5------5---5-------
G-----------------------------------------------

Beat...

A----3--3-------3--3-------3--3-------3---3-----
E----4--4-------4--4-------4--4-------4---4-----
C--5---5------4---4------3---3------2---2-------
G-----------------------------------------------  (x4)


A-----------------------------------------------
E----4-----4-4------------4-----4-4-------------
C--1-1---1-3-4---1111---1-1---1-3-4---1111------
G-----------------------------------------------

Trumpet Part:

|---3---------------6-8-6-------|
|-1---1-1-3-3-4-6-8-------4-3-4-|
|-------------------------------|
|-------------------------------|

Original Song:

String Quintet in E

By Boccherini

You'll know it when you hear it!
Low-G Only i'm afraid, unless you want to transpose it up a bit.

Part 1:
|-3-2-3-5-3-------------------------------------|
|-------------0-3-3-1-1---1-0-1-3-1-----1-1-0-0-|
|-----------0-------------------------0---------|
|-----------------------------------2-----------|

|-3-0---------3-0---------3-0-2-----3-0-----|
|-----3-2-2-2-----3-2-2-2-------3-0-----353-|
|-------------------------------------------|
|-------------------------------------------|

Repeat part 1

|-3-2-------------------3-2-----------------|
|-----0-0-0-5-4-0-0-0-------0-0-0-5-4-0-0-0-|
|-------------------------------------------|
|-------------------------------------------|


|-3-2-3-5-3-------------------------------------|
|-------------0-3-3-1-1---1-0-1-3-1-----1-1-0-0-|
|-----------0-------------------------0---------|
|-----------------------------------2-----------|

|-------------------------------------------|
|-1-----------1-----------1---0-----1-------|
|---2-0---------2-0---------2---0-----2-020-|
|-------4-4-4-------4-4-4---------2---------|

Original Song: