Mozart Symphony Number 40

Mozart Symphony Number 40
(You'll know it when you hear it)
|-------------------3-3-2-0-0-------------|
|-1-0-0-1-0-0-1-0-0-----------3-1-1-0-----|
|-------------------------------------2-2-|
|-----------------------------------------|

|-------------------2-2-0-----------------|
|-0-----0-----0-----------4-4-1-0-0-------|
|---2-2---2-2---2-2-----------------2-0-0-|
|-----------------------------------------|

|-3-2-2-5---2-0---3-2-2-5---2-0-3-|
|---------4-----0---------4-------|
|---------------------------------|
|---------------------------------|

|-2-0-----------6-7-6-7-6-7-6-7-6-7-------|
|-----3-1-0---0---------------------------|
|-----------3-----------------------------|
|-----------------------------------------|

I found this tab here:
http://ukulelehunt.com/ukertabs/2011/05/08/mozart-symphony-no-40/#comments
But it had some problems. Either that or I've heard a different rendition.
Either way, mine is the same as his, with a few minor note changes and a large
difference before the 676767 bit.

Original Song:
Advertisements

Leave a Reply

Fill in your details below or click an icon to log in:

WordPress.com Logo

You are commenting using your WordPress.com account. Log Out / Change )

Twitter picture

You are commenting using your Twitter account. Log Out / Change )

Facebook photo

You are commenting using your Facebook account. Log Out / Change )

Google+ photo

You are commenting using your Google+ account. Log Out / Change )

Connecting to %s