Game Of Thrones Theme

by Ramin Djawadi

If the long bars are too hard, i'd suggest repeating the
last note of the short bar to the beat of the long bar :)

|-10------6-8-10---6-8--------|
|-----8----------8----10------|
|-----------------------------|
|-----------------------------|

|--------------------------------------------------------|
|-----6-8-10-------6-8-10-------6-8-10-------6-8-10------|
|-7-7----------7-7----------7-7----------7-7----------7-7|
|--------------------------------------------------------|

|-8------6-5-8-------6-5-----|
|-----6---------6--------8---|
|----------------------------|
|----------------------------|

|-----------------------------------------------------|
|-------6-8---------6-8---------6-8---------6-8-----8-|
|-7-7-8-------7-7-8-------7-7-8-------7-7-8-------7---|
|-----------------------------------------------------|


|-10------6-8-10---6-8--------|
|-----8----------8----10------|
|-----------------------------|
|-----------------------------|

|--------------------------------------------------------|
|-----6-8-10-------6-8-10-------6-8-10-------6-8-10------|
|-7-7----------7-7----------7-7----------7-7----------7-7|
|--------------------------------------------------------|

|-8------5-6-5---------------|
|-----6---------6-8----------|
|----------------------------|
|----------------------------|

|-----------------------------------------------------|
|-------6-8---------6-8---------6-8---------6-8-----8-|
|-7-7-8-------7-7-8-------7-7-8-------7-7-8-------7---|
|-----------------------------------------------------|

(Repeat the above lots)

|-3--1----------------------|-3--1-------------------------|
|---------4-3---1-----1-3---|---------4-3---1--------------|
|-------0---------3-3-------|-------0---------3-3-2-0------|
|-----------------(1)-------|-----------------(1)----------|
                   ^This note is for a low G uke only

(This is the bass part for Low-g uke):
|-----------------------------------------|
|-----------------------------------------|
|-0---------0---------0---------0---------|
|---0-0-1-3---0-0-1-3---0-0-1-3---0-0-1-3-|


(and this is the bass part for High-g uke):
|-3-------1-3-------1-3-------1-3-------1-|
|---3-3-4-----3-3-4-----3-3-4-----3-3-4---|
|-----------------------------------------|
|-----------------------------------------|


If you play the game of thrones, you win, or you break a string.
Original Song: 

the actual original video keeps getting copyright
claimed and taken down, so this cover will have to do.

The original is on grooveshark here:
http://grooveshark.com/#!/s/Game+Of+Thrones/3JwFzf?src=5
Advertisements

6 responses to “Game Of Thrones Theme

  1. Pingback: Game Of Thrones Theme | A mind needs books like a sword needs a whetstone.

Leave a Reply

Fill in your details below or click an icon to log in:

WordPress.com Logo

You are commenting using your WordPress.com account. Log Out / Change )

Twitter picture

You are commenting using your Twitter account. Log Out / Change )

Facebook photo

You are commenting using your Facebook account. Log Out / Change )

Google+ photo

You are commenting using your Google+ account. Log Out / Change )

Connecting to %s