Spiral Mountain

Spiral Mountain Tab
Intro:
|--------------0-------
|3---3---3-3-----3-----
|--------------------2-
|---------------------

Body:
|-3---3---5-3-------0-----0--2--3|-2---0-----------0----------
|-------------3-3-------3--------|---------3---3-----3-0-1---0
|--------------------------------|-------------------------2--
|--------------------------------|----------------------------

|----0--2--3--3--5-3-----7--5-7--5--3|-3-4-5--5--7-5--0--2-0-2-0-----0-2
|-3------------------3-3-------------|---------------------------3-3----
|------------------------------------|----------------------------------
|------------------------------------|----------------------------------

|-3--3--5-3------3--3--5-3--------|-3--3--5-3------3--3--5-6-5-3-0--
|-----------3-3--------------4--4-|-----------5-5-------------------
|---------------------------------|---------------------------------
|---------------------------------|---------------------------------

|-3--3--5-3------2-0-2-0-----0-2|-3--3-3--2-3--0--3-3--2-3-----------0----
|-----------3-3----------3-3----|--------------------------3--3--3-3---3--
|-------------------------------|----------------------------------------2
|-------------------------------|-----------------------------------------
Repeat for clarinet
Flute part
          /\/\             /\/\          /\/\
|-----0---3---------------------|-----0---3-----2-2-0-0-2-2-----
|-1--3--1--------------0---3----|-1--3--1-------------------3-3-
|------------------0--2--0------|-------------------------------
|-------------------------------|-------------------------------
          /\/\             /\/\ 
|-----0---3---------------------|-----0-------0-------02---2-5-10
|-1--3--1--------------0---3----|-1--3--1-2-3---2-3------3------
|------------------0--2--0------|-------------------------------
|-------------------------------|-------------------------------
Repeat top part again
Infinite loop

Spiral Mountain is the starting area in Banjo-Kazooie.
That game had some spectacular music. I like to play this
In the morning with the sun on my face.
Original Tune:
Advertisements

Leave a Reply

Fill in your details below or click an icon to log in:

WordPress.com Logo

You are commenting using your WordPress.com account. Log Out / Change )

Twitter picture

You are commenting using your Twitter account. Log Out / Change )

Facebook photo

You are commenting using your Facebook account. Log Out / Change )

Google+ photo

You are commenting using your Google+ account. Log Out / Change )

Connecting to %s