Take On Me Riff

by A-Ha
It's in tune with these chords:
http://www.chordie.com/chord.pere/hem.passagen.se/surftore/text/lyrics/a-ha/take_on_me_pro.txt
but it's easily transposed :)

|-----------------0-0-1-3-1-1-1---------------------|
|-3-3-------1-1-1---------------1---3-3---3-1-1-3-1-|
|-----3-0-0-----------------------3-----------------|
|---------------------------------------------------|

Actual song in key (requires Low-G):
|---------------------0-2-0-0-0---------------------|
|-2-2-------0-0-0-4-4-----------0---2-2---2-0-0-2-0-|
|-----2---------------------------2-----------------|
|-------4-4-----------------------------------------|

Original Song:

Advertisements

Leave a Reply

Fill in your details below or click an icon to log in:

WordPress.com Logo

You are commenting using your WordPress.com account. Log Out / Change )

Twitter picture

You are commenting using your Twitter account. Log Out / Change )

Facebook photo

You are commenting using your Facebook account. Log Out / Change )

Google+ photo

You are commenting using your Google+ account. Log Out / Change )

Connecting to %s