WitchyWorld

WitchyWorld Theme
in 2:3
//Intro
|12----11----10----9-----8-----7--3--2--0--3--7--12--
|----------------------------------------------------
|----------------------------------------------------
|----------------------------------------------------
//Panflute
|0-----2--3-----5--6-----8--6--------0-----2--3-----5--7--------2--------
|------------------------------------------------------------------------
|------------------------------------------------------------------------
|------------------------------------------------------------------------

|0-----2--3-----5--1-----5--3-----1--2-----4--6-----9--7-----------------
|------------------------------------------------------------------------
|------------------------------------------------------------------------
|---------------------------------------------------------------1--------

|0-----2--3-----5--6-----8--6--------0-----2--3-----5--7--------2--------
|------------------------------------------------------------------------
|------------------------------------------------------------------------
|------------------------------------------------------------------------

|0-----2--3-----5--7--------12-------8--------7--9--11-12-7--------------
|-----------------------8---------------------------------------8--------
|------------------------------------------------------------------9-----
|------------------------------------------------------------------------

//tuba bit
|------------------------------------------------------------------------
|------3--1--------1--3--------------------3--1-----1--0-----0--0--2-----
|------------------------------------------------------------------------
|2--1--------------------1--2--------2--1-----------------------------1--

|------------------------------------------------------------------------
|------3--1--------1--3--------------0-----0--1-----1--0-----1--0-----1--
|------------------------------------------------------------------------
|2--1--------------------1--2--------------------------------------------

//Back to panflute
|0-----2--3-----5--6-----8--6--------0-----2--3-----5--7--------2--------
|------------------------------------------------------------------------
|------------------------------------------------------------------------
|------------------------------------------------------------------------

|0-----2--3-----5--7--------12-------8--------7--9--11-12-7--------------
|-----------------------8------------------------------------8-----------
|---------------------------------------------------------------9--------
|------------------------------------------------------------------------

//Other thing
|5-4-5-4-5-4-5--5--4--2--------2--5-----5-4-5-4-5--5--4--3-----0--0------
|---------------------------3--------------------------------------------
|------------------------------------------------------------------------
|------------------------------------------------------------------------

|1-----1--1--0-----------2--6-----9--8-----------8-----5--------4--3--1--
|---------------3--2-----------------------8--8-----8--------------------
|------------------------------------------------------------------------
|------------------------------------------------------------------------

//Different panflute (If your uke has 12 frets, skip this part chunk)
|------------------------------------------------------------------------
|---------------------------------------------------6--------------------
|------------------------------------------------------------------------
|12-12-11-10-9--8--7-----------------8-----5--7--------7-----5--3-----2--(slide up to next note from 2)
                    /\/\/\/\/\/\/\/\
|------------------------------------------13-------12-------12-----15--13
|------------------------------------------------------------------------
|------------------------------------------------------------------------
|12-12-11-10-9--8--7--------------8-----12-------12-------11-------------
                   /\/\/\/\/\/\/\/\
//tuba bit
|------------------------------------------------------------------------
|------3--1--------1--3--------------------3--1-----1--0-----0--0--2-----
|------------------------------------------------------------------------
|2--1--------------------1--2--------2--1-----------------------------1--

|------------------------------------------------------------------------
|------3--1--------1--3--------------0-----0--1-----1--0-----1--0-----1--
|------------------------------------------------------------------------
|2--1--------------------1--2--------------------------------------------

|----------------
|1-----2--1-----2
|----------------
|----------------
Repeat ad nausium
Original Tune:
 http://www.youtube.com/watch?v=Kb73u_P3SWk&feature=related
There's a pretty good tab for Click Clock Wood over here:
 http://uke.freehostia.com/tabs/banjo-kazooie.txt

PS: /\/\/\ means vibrato
Advertisements

Leave a Reply

Fill in your details below or click an icon to log in:

WordPress.com Logo

You are commenting using your WordPress.com account. Log Out / Change )

Twitter picture

You are commenting using your Twitter account. Log Out / Change )

Facebook photo

You are commenting using your Facebook account. Log Out / Change )

Google+ photo

You are commenting using your Google+ account. Log Out / Change )

Connecting to %s