Careless Whisper Riff

By George Michael
LOW-G ONLY
I know there is a tab for this up on ukulele-tabs.com,
but since it's blocked in my country I can't check it
to see if it's identical to mine :( I hope it's not!

|-7-5-0-----7-5-0---------|
|-------1---------1-------|
|-------------------------|
|-------------------------|

|-3-1-------3-1-----------|
|-----1---------1---------|
|-------2---------2-------|
|-------------------------|

|-1-0----------------------|
|-----1--------------------|
|-------2------------------|
|---------3----------------|

|---------------0----------|
|---------0-1-3------------|
|-----0-2------------------|
|-2-3----------------------|

Original Song:

Advertisements

Leave a Reply

Fill in your details below or click an icon to log in:

WordPress.com Logo

You are commenting using your WordPress.com account. Log Out / Change )

Twitter picture

You are commenting using your Twitter account. Log Out / Change )

Facebook photo

You are commenting using your Facebook account. Log Out / Change )

Google+ photo

You are commenting using your Google+ account. Log Out / Change )

Connecting to %s