Way Back Into Love

By Off And Uke

A tab of this tutorial:


|-3-----0-2-3-2-0-----3-|
|-0---3-------0---0-3-3-|
|-0-----------0-------0-|
|-0-----------2-------0-|

|---0-2-3-2-0---0-0-----|
|-3-------0---0---1-----|
|---------0-------0-----|
|---------2-------2-----|

|-0-0-0-----2---2-------|
|-------3-1-0---1-------|
|-----------2-0-2-------|
|-----------0---0-------|

|-3-0-0-0-----2---2-------|
|-0-------3-1-0---1-------|
|-0-----------2-0-2-------|
|-0-----------0---0-------|

Original Song:

Advertisements

One response to “Way Back Into Love

Leave a Reply

Fill in your details below or click an icon to log in:

WordPress.com Logo

You are commenting using your WordPress.com account. Log Out / Change )

Twitter picture

You are commenting using your Twitter account. Log Out / Change )

Facebook photo

You are commenting using your Facebook account. Log Out / Change )

Google+ photo

You are commenting using your Google+ account. Log Out / Change )

Connecting to %s