Pokemon Center

By Junichi Masuda

I've seen different versions of this song tabbed for uke around
the internet, I thought I'd tab it in the easiest possible
way to play :)

|-------5-3-2-0-----------2-0-----2-|
|-3---3---------2---2---2-----2-3---|
|---2-----------------2-------------|
|-----------------------------------|

|-------5-3-2-0-----------2-0-------|
|-3---3---------2---2---2-----2-3---|
|---2-----------------2-------------|
|-----------------------------------|

|-2-5-3-5-3-2-0-----0-2-3-2-0-------|
|-----------------2-----------3-----|
|-----------------------------------|
|-----------------------------------|

|-2-5-3-2-3-5-7---5-3-2-3-2-3-2-0---|
|---------------------------------3-|
|-----------------------------------|
|-----------------------------------|



Advertisements