Gruntilda’s Lair

By Grant Kirkhope
Soprano-Friendly
Low-G preferred, but not compulsory
This is by far one of the catchiest and most memorable
tunes from Banjo-Kazooie. 
Have fun!

Bass:
|-----------------------------------------------|
|-----------------------------------------------|
|-0---3-----3-0---3-----3-0---3-----3-0---3-----|
|-------0-----------0-----------0-----------0---|
(throughout song)


Intro:
|-------------------------------------3-6-5-6-5-|
|-------------------------3-6-5-6-5-------------|
|-------------0-3-2-3-2-------------------------|
|-0-3-2-3-2-------------------------------------|
OR
|-------------------------------------3-6-5-6-5-|
|-----------------------------------------------|
|-0-3-2-3-2---0-3-2-3-2---0-3-2-3-2-------------|
|-----------------------------------------------|

First Half:
|-----------------------------------------|
|-----------------3-4-3-------------------|
|-0---3-2-3-2-0---------0---3-2-3-2-0-----|
|---------------------------------------3-|

|-----------------1-3-1-------------------|
|-----3-1-3-1-----------------3-1-3-1-----|
|-3-----------3-----------3-----------3---|
|-----------------------------------------|


Second Half:
|-----------1-3--5-6--5-4--3-1------0-2-5-|
|-1---4-3-4---------------------4-3-------|
|-----------------------------------------|
|-----------------------------------------|

|---------------------3-------2---2-5-2-5-8-6-5-|
|-4---6-8-6-4-1---3-4---3---3---3---------------|
|-------------------------2---------------------|
|-----------------------------------------------|
OR IF YOU PREFER:
|-----------------------------------5---5-8-6-5-|
|-4---6-8-6-4---------8-------7---7---7---------|
|-------------5---7-8---7---7---7---------------|
|-------------------------7---------------------|


Repeat second half

Then repeat both halves

				       ~ (bend string0
|-3-3-3-3---6-----------3-3-3-3---6----4-|
|-------------6-5-6-5-3-------------6----|
|----------------------------------------|
|----------------------------------------|

|-3-3-3-3---6---------------------------------|
|-------------6-5-6-5-3---1-3-4-3-1-3-2-3-4-3-|
|---------------------------------------------|
|---------------------------------------------|

|-3-3-3-3---6-----------3-3-3-3---6----4-|
|-------------6-5-6-5-3-------------6----|
|----------------------------------------|
|----------------------------------------|

|-3-3-3-3---6---------------------------------|
|-------------6-5-6-5-3---3-4-3-2-------------|
|---------------------------------3-0---1-----|
|---------------------------------------------|

(repeat both halves)

Outro:			(different instuments)
|----------------------|------------------|
|-----------------3-4-3|------------------|
|-0---3-2-3-2-0--------|0---3-2-3-2-0-----|
|----------------------|----------------0-|

|----------------------|------------------|
|-----------------3-4-3|------------------|
|-0---3-2-3-2-0--------|0---3-2-3-2-0-----|
|----------------------|----------------0-|

(pause, with bass in background)

Repeat whole thing forever minus the intro :D


Original Song: