Way Back Into Love

By Off And Uke

A tab of this tutorial:


|-3-----0-2-3-2-0-----3-|
|-0---3-------0---0-3-3-|
|-0-----------0-------0-|
|-0-----------2-------0-|

|---0-2-3-2-0---0-0-----|
|-3-------0---0---1-----|
|---------0-------0-----|
|---------2-------2-----|

|-0-0-0-----2---2-------|
|-------3-1-0---1-------|
|-----------2-0-2-------|
|-----------0---0-------|

|-3-0-0-0-----2---2-------|
|-0-------3-1-0---1-------|
|-0-----------2-0-2-------|
|-0-----------0---0-------|

Original Song:

I need a dollar

I've just been playing these three chords and singing this
song for so long! It's so catchy I thought i'd have to post it :D 

http://tabs.ultimate-guitar.com/a/aloe_blacc/i_need_a_dollar_ver2_crd.htm

I tabbed the melody so you can play a little solo along with it :D

|-0-7-0-3-0---0-3-3-0-3-5-7-----0-|
|-----------3-----------------3---|
|---------------------------------|
|---------------------------------|

|-0-7-0-3-0---0-3-3-0-3-5-7-----0-|
|-----------3-----------------3---|
|---------------------------------|
|---------------------------------|

|-0-12-0-3-0---0-3-3-0-3-5-7---0-0-|
|------------3---------------------|
|----------------------------------|
|----------------------------------|

|-3-5-7-5-3-0---0-3-0-3-0---0------|
|-------------3-----------3--------|
|----------------------------------|
|----------------------------------|

Gerudo Valley

By Koji Kondo
Why I didn't tab this before I have NO idea!
Gbm is:
2120
My suggestion for the chord E is:
1X02
and my suggestion for the chord Db7 is:
1112

LOW-G ONLY
Seriously guys, you should really give Low-G a try! 
It makes all the difference for a lot of songs. I
don't know why, but SO MANY songs have one of the 
5 extra notes you gain on a low-g, and I swear it
makes the chords sound fuller.
Anyway...

Intro Riff (Shout out to futuregeneration and
KonyHawkProSkater of reddit for the intro riff :D)

A|------------3-6---2-5-8-10
E|--------1-4----------------
C|------2--------------------
G|----0----------------------

ChakkaChakkaChakkaChakka
ChakkaChakkaChakkaChakka
ChakkaChakkaChakkaChakka
ChakkaChakkaChakkaChakka

Gbm D E Db7

|-------0-------0-----------|
|-----4-------4-------------|
|---6-------6---------------|
|-6-------6-----------------|

|-------0-------0-----------|
|-----4-------4-------------|
|---6-------6---------------|
|-7-------7-----------------|

|---------------------------|
|-----2-4-----2-4---2-4-2-1-|
|---4-------4---------------|
|-4-------4-----------------|


|-------0-------0-----------|
|-----4-------4-------------|
|---6-------6---------------|
|-6-------6-----------------|

|-------0-------0-----------|
|-----4-------4-------------|
|---6-------6---------------|
|-7-------7-----------------|

|-------------------0-2-0---|
|-----2-4-----2-4---------4-|
|---4-------4---------------|
|-4-------4-----------------|
	       _
	      / \ Hammer on and off
|---0-----------------------|
|-----4-2---0-020-----------|
|-1-------1-------2---------|
|---------------------------|
	       _
	      / \
|---------------------------|
|---4-2---------------------|
|-------4-2-1-242-1---------|
|-4-------------------------|

	       _
	      / \ 
|---0-----------------------|
|-----4-2---0-020-----------|
|-1-------1-------2---------|
|---------------------------|

Next bar has two versions, pick your favourite :)
Easy Version:
	|---------------------------|
	|-------2-0-----------------|
	|-------------2-1-----------|
	|-2-4-----------------------|
Hard Version:
	|-0-2---9-7---5-4-----------|
	|---------------------------|
	|-------6-4---2-1-----------|
	|-2-4-----------------------|
	       _
	      / \
|---------------------------|
|-5-4-5-4---0---------------|
|---------1---212-----------|
|---------------------------|
	       _
	      / \
|---------------------------|
|-4-2-4-0-------------------|
|---------2-1-242-1---------|
|---------------------------|

|-----0-4-----0-4-----0-5-----0-5-|(Thanks to Iowauke
|-2-4-----2-4-----2-4-----2-4-----| for this block)
|---------------------------------|
|---------------------------------|
                                    
Easy Version:
	|-------------2-4-----------|
	|-------4-2-----------------|
	|-2-4---4-2-----------------|
	|-2-4---------4-6-----------|
Hard Version:
	|-0-2--11-9---2-4-----------|
	|---------------------------|
	|-------8-6-----------------|
	|-2-4---------4-6-----------|

Trumpet:
|-------------0-2-0---------|
|-5-4-5---2-4-------4-5-4-5-|
|---------------------------|
|---------------------------|

|---------------0-----------|
|-4-2-4---0-2-4---4-2-4-2-1-|
|---------------------------|
|---------------------------|


|-------------0-2-0---------|
|-5-4-5---2-4-------4-5-4-5-|
|---------------------------|
|---------------------------|

|-2-0-2---0-2-5-7-4-5-4-5-4-|
|---------------------------|
|---------------------------|
|---------------------------|

Back to guitar
|-------------------0---0---0---0-|
|-2-4-5-4-2-4-5-4-----4-------4---|
|-----------------2-------2-------|
|---------------------------------|

|---2-1-2---2-1-2-5-7-5-4---|
|-0-------0-----------------|
|---------------------------|
|---------------------------|

Repeat forever :D

Original Song:

Big Troubles!

There has been a biiiig problem! Recently I moved to england to get my masters degree, and I have

discovered something that will impede my progress immensely!

As you know, I try to write tabs for songs that I can’t find written for ukulele already on the internet.

So before I write a tab, I thoroughly scan the web for the song to see if someone else has already written

it. However in this country, for some bloody reason, ukulele-tabs.com is blocked. Seriously! So I use a

proxy server to get around it, ukulele-tabs.com requires that users log in to be able to see most of their

content, and the proxy server breaks the login page, so I can’t log in!

TL;DR:

I can’t check ukulele-tabs.com any more to see if my tab is original or not.

If anyone knows how to help, please comment!

Last Resort

By Papa Roach
High and Low-G acceptable!
Please note, this tab may have been written on ukulele-tabs.com,
but i've just moved to england and for some reason
that website is banned here :( So if this is a repost
i'm sorry, but I swear I tabbed this myself :)

The chords can be found here:
http://www.guitaretab.com/p/papa-roach/243477.html
The famous riff is below :D

|---------2---------------2-------|
|-0-3-2-3---3-2-3---3-2-3---3-2-3-|
|-----------------2---------------|
|---------------------------------|

|---------2-----------------------|
|---3-2-3---3-2-3-----------------|
|-0---------------2-2-2---2-2-2---|
|---------------------------------|

Original Song:

Summertime

By Gershwin
I found this tab for the song on Scorpex's website here:
http://scorpexuke.com/pdffiles/Summertime.pdf
And its great! One of the best, I love it. What I like to do
is play the first verse of that, then play just the plain
summertime tab (below), and then do his second verse. 

PS: Definitely check out scorpex if you haven't already!

(LOW G VERSION) (Like it better, and its in key :D)
|-0---0-------0-------0---------------|
|---1---3-1-3---1-------1-3-1-1-3-1-0-|
|-----------------2-------------------|
|-------------------2-----------------|

|-0---0-------0-------------------0-------|
|---1---3-1-3---1---------------1---3-1---|
|-----------------2-----0---0-2---------2-|
|-------------------2-2---2---------------|


(HIGH G VERSION) 
|-3---3-------3-------3---------------|
|---4---6-4-6---4-------4-6-4-4-6-4-3-|
|-----------------5-0-----------------|
|-------------------------------------|

|-3---3-------3-------------------3-1-----|
|---4---6-4-6---4-------------1-4-----4-1-|
|-----------------5-0-0-3-0-3-------------|
|-----------------------------------------|

Original Song: ( I prefer my summertimes faster and more punchy
than this version myself )

Soft Kitty

By Big Bang Theory
:3 Its obvious, i'm sure you could all figure this
one out yourselves in a few moments. I mostly tabbed
this so that you'd see it and go "Oh, thats something
to play for the lolz!"


|-3-0-0-1-----------0-1-3---3-0-0-1-------------|
|---------3-3---1-3-----------------3-3---1-3-1-|
|-----------------------------------------------|
|-----------------------------------------------|

Original Song: