I need a dollar

I've just been playing these three chords and singing this
song for so long! It's so catchy I thought i'd have to post it :D 

http://tabs.ultimate-guitar.com/a/aloe_blacc/i_need_a_dollar_ver2_crd.htm

I tabbed the melody so you can play a little solo along with it :D

|-0-7-0-3-0---0-3-3-0-3-5-7-----0-|
|-----------3-----------------3---|
|---------------------------------|
|---------------------------------|

|-0-7-0-3-0---0-3-3-0-3-5-7-----0-|
|-----------3-----------------3---|
|---------------------------------|
|---------------------------------|

|-0-12-0-3-0---0-3-3-0-3-5-7---0-0-|
|------------3---------------------|
|----------------------------------|
|----------------------------------|

|-3-5-7-5-3-0---0-3-0-3-0---0------|
|-------------3-----------3--------|
|----------------------------------|
|----------------------------------|
Advertisements

Leave a Reply

Fill in your details below or click an icon to log in:

WordPress.com Logo

You are commenting using your WordPress.com account. Log Out / Change )

Twitter picture

You are commenting using your Twitter account. Log Out / Change )

Facebook photo

You are commenting using your Facebook account. Log Out / Change )

Google+ photo

You are commenting using your Google+ account. Log Out / Change )

Connecting to %s