Summertime

By Gershwin
I found this tab for the song on Scorpex's website here:
http://scorpexuke.com/pdffiles/Summertime.pdf
And its great! One of the best, I love it. What I like to do
is play the first verse of that, then play just the plain
summertime tab (below), and then do his second verse. 

PS: Definitely check out scorpex if you haven't already!

(LOW G VERSION) (Like it better, and its in key :D)
|-0---0-------0-------0---------------|
|---1---3-1-3---1-------1-3-1-1-3-1-0-|
|-----------------2-------------------|
|-------------------2-----------------|

|-0---0-------0-------------------0-------|
|---1---3-1-3---1---------------1---3-1---|
|-----------------2-----0---0-2---------2-|
|-------------------2-2---2---------------|


(HIGH G VERSION) 
|-3---3-------3-------3---------------|
|---4---6-4-6---4-------4-6-4-4-6-4-3-|
|-----------------5-0-----------------|
|-------------------------------------|

|-3---3-------3-------------------3-1-----|
|---4---6-4-6---4-------------1-4-----4-1-|
|-----------------5-0-0-3-0-3-------------|
|-----------------------------------------|

Original Song: ( I prefer my summertimes faster and more punchy
than this version myself )

Advertisements

Leave a Reply

Fill in your details below or click an icon to log in:

WordPress.com Logo

You are commenting using your WordPress.com account. Log Out / Change )

Twitter picture

You are commenting using your Twitter account. Log Out / Change )

Facebook photo

You are commenting using your Facebook account. Log Out / Change )

Google+ photo

You are commenting using your Google+ account. Log Out / Change )

Connecting to %s