Ghostwriter

By RJD2
The actual guitar part was not written by me, I got
it from here:
http://www.ukulele-tabs.com/uke-songs/rjd2/ghostwriter-uke-tab-16283.html

I wrote the trumpet part though :D

#Intro

A----3--3-------3--3-------3--3-------3--3------
E----4--4-------4--4-------4--4-------4--4------ 
C--3---3------3---3------2---2------2---2-------
G-----------------------------------------------  (x3)

A----3--3-------3--3-------3--3-------3--3------
E----4--4-------4--4-------4--4-------4--4------
C--3---3------4---4------5---5------5---5-------
G-----------------------------------------------

Beat...

A----3--3-------3--3-------3--3-------3---3-----
E----4--4-------4--4-------4--4-------4---4-----
C--5---5------4---4------3---3------2---2-------
G-----------------------------------------------  (x4)


A-----------------------------------------------
E----4-----4-4------------4-----4-4-------------
C--1-1---1-3-4---1111---1-1---1-3-4---1111------
G-----------------------------------------------

Trumpet Part:

|---3---------------6-8-6-------|
|-1---1-1-3-3-4-6-8-------4-3-4-|
|-------------------------------|
|-------------------------------|

Original Song:

Advertisements

Leave a Reply

Fill in your details below or click an icon to log in:

WordPress.com Logo

You are commenting using your WordPress.com account. Log Out / Change )

Twitter picture

You are commenting using your Twitter account. Log Out / Change )

Facebook photo

You are commenting using your Facebook account. Log Out / Change )

Google+ photo

You are commenting using your Google+ account. Log Out / Change )

Connecting to %s