Jolly Rogers Lagoon Theme from Banjo-Tooie

This is correctly tuned, but has ONE note that
requires a low-G tuning. If you transpose the whole song
up by one note, then you can squeeze that note up into
bottom C, but then you'll need to have a deeper uke than
soprano, as you'll need 13 frets. You can prolly just 
fake that note though lol.

Chorus:
|-----------------------------------|
|-----------1-3-5-------------3-5-7-|
|-0-2-4-2-0---------2-4-6-4-2-------|
|-----------------------------------|

|-----------0-2-3---3-2-3-5-3-------|
|-0-2-4-2-0-------------------------|
|-----------------------------0-----|
|-----------------------------------|

(Chorus x2)

|-------------------------------0-------3-2--|
|-1-0-1-3-0---------------0---0---3-0-1-----3|
|-----------0-2-0---2-0-----2----------------|
|-----------------4--------------------------|

|-------------------------------0-------3-2-5|
|-1-0-1-3-0---------------0---0---3-0-1------|
|-----------0-2-0---2-0-----2----------------|
|-----------------4--------------------------|

(Chorus)

|-------------------------------------------|
|---0-2--------0-2--------5-4-5-4-5-2-------|
|-2-----3--0-2-----3--0-2-------------------|
|-------------------------------------------|

|---------------------------0-2-0-2-0-2-0---|
|---0-2--------0-2--------2---------------2-|
|-2-----3--0-2-----3--0-2-------------------|
|-------------------------------------------|

|-------------------------------------------|
|---0-2--------0-2--------5-4-5-4-5-2-------|
|-2-----3--0-2-----3--0-2-------------------|
|-------------------------------------------|

|---------------------------------0-2-5-----|
|---0-2--------0-2--------0-2-0-2-----------|
|-2-----3--0-2-----3--0-2-------------------|
|-------------------------------------------|

(I like to whistle this next part as well)
(hope you can finger pick with thumb and index!)

|---0---2---0---2---0---2---5---3---5---3---5---3-|
|-------------------------------------------------|
|-2---2---2---2---2---2---3---3---3---3---3---3---|
|-------------------------------------------------|

|---0---2---0---2---0---2---5---3---5---3---5---3-|
|-------------------------------------------------|
|-2---2---2---2---2---2---3---3---3---3---3---3---|
|-------------------------------------------------|

(This next bit is like the superchorus. Its a duet
with two instruments interrubpting each other. Imma
do my best to compile it into one instrument)

|-------------------------------2-4-6-4-2-|
|-----------1-3-5-3-1-2-4-6-4-2-----------|
|-0-2-4-2-0-------------------------------|
|-----------------------------------------|

|-3-5-7-5-3--4-6-7--7-9-11-12-11-7--|
|-----------------------------------|
|-----------------------------------|
|-----------------------------------|

Original Song:
Advertisements

Leave a Reply

Fill in your details below or click an icon to log in:

WordPress.com Logo

You are commenting using your WordPress.com account. Log Out / Change )

Twitter picture

You are commenting using your Twitter account. Log Out / Change )

Facebook photo

You are commenting using your Facebook account. Log Out / Change )

Google+ photo

You are commenting using your Google+ account. Log Out / Change )

Connecting to %s