Pendulum – Fasten Your Seatbelts

LOW-G TUNING ONLY

|-----0-1---------------|
|-3-3-----3-------------|
|-----------2-1-1-------|
|-----------------3-2-0-|

|---0-1---------------|
|-3-----3---------2-3-|
|---------2-1-1-2-----|
|---------------------|

(repeat as necessary)

|---0-1---------------5-10-|
|-3-----3---3-3-3-5-6------|
|---------2----------------|
|--------------------------|
OR
|---0-1-----------0-----10-|
|-3-----3---3-3-3-----10---|
|---------2---------10-----|
|--------------------------|

Original Song (starts at 1:01):
Advertisements

Leave a Reply

Fill in your details below or click an icon to log in:

WordPress.com Logo

You are commenting using your WordPress.com account. Log Out / Change )

Twitter picture

You are commenting using your Twitter account. Log Out / Change )

Facebook photo

You are commenting using your Facebook account. Log Out / Change )

Google+ photo

You are commenting using your Google+ account. Log Out / Change )

Connecting to %s