Halo Theme Intro

HALO Theme Intro
Male Choir (play softly with artistic pauses)
|---------0---------2-4-5-4-0-4-2-|
|-0-2-3-2---3-2-0-----------------|
|---------------------------------|
|---------------------------------|

|---------0-----------------------|
|-----0-3---2-0-3-2-0-2---0-------|
|-0-2-------------------2---------|
|---------------------------------|

Original Song:
Advertisements

Leave a Reply

Fill in your details below or click an icon to log in:

WordPress.com Logo

You are commenting using your WordPress.com account. Log Out / Change )

Twitter picture

You are commenting using your Twitter account. Log Out / Change )

Facebook photo

You are commenting using your Facebook account. Log Out / Change )

Google+ photo

You are commenting using your Google+ account. Log Out / Change )

Connecting to %s