Saria’s Song

|---0-2-----0-2---------7-5---2-3-2---------------|
|-1-------1---------5-7-------------3-0-----0-3-0-|
|-----------------5-----------------------2-------|
|-------------------------------------------------|

|---0-2-----0-2---------7-5---2-3-7-3-----3-------|
|-1-------1---------5-7---------------3-----3---0-|
|-----------------5---------------------------2---|
|-------------------------------------------------|

|-----------0-2---3-2-----------------0-2---3-5-7-|
|---0-1---3-----------0-------0-1---3-------------|
|-2-------------------------2---------------------|
|-------------------------------------------------|

|-----------0-2---3-2-----------------0---2-0-7-8-5-7-|
|---0-1---3-----------0---0---1-0-3-1---3-------------|
|-2-------------------------2-------------------------|
|-----------------------------------------------------|

(---7-7-----7-7----7---7---)
(-0-------0------0---0---0-)
(--------------------------)
(--------------------------)

PLEASE NOTE:
I didn't write this one from scratch, it's a cut down version of this:

http://uke.freehostia.com/tabs/sarias_song.txt

Shadowflare wrote the more complicated version. I assume it sounds great, but
there a chunks of it I dont get, so I'v simplified it here.

Original Song:
http://www.youtube.com/watch?v=uEWWhzrZh18&feature=fvwrel
Advertisements

Leave a Reply

Fill in your details below or click an icon to log in:

WordPress.com Logo

You are commenting using your WordPress.com account. Log Out / Change )

Twitter picture

You are commenting using your Twitter account. Log Out / Change )

Facebook photo

You are commenting using your Facebook account. Log Out / Change )

Google+ photo

You are commenting using your Google+ account. Log Out / Change )

Connecting to %s