Pistolero by Juno Reactor

This isn't finished yet, there are one or two more riffs for me to make, but they'll be up soon

//Riff one:
|-8-3-3----1-3-4-3------------1-----------------|
|------(1)----------3-3-1-3-4---4-3-1-0-1-------|
|---------------------------------------------0-|
|-----------------------------------------0-0---|

//Riff two:
|-3-1-3-1-3-1-------3-1-3-1-3-1-4-3-1-3-1-3-1-3-|
|-------------3-2-1-----------------------------|
|-----------------------------------------------|
|-----------------------------------------------|

|-1------------------------1---1---1------------|
|---3-2-1------1---1---1-3---3---3--------------|
|----------0-3---3---3--------------------------|
|-----------------------------------------------|

Original Song:
Advertisements

Leave a Reply

Fill in your details below or click an icon to log in:

WordPress.com Logo

You are commenting using your WordPress.com account. Log Out / Change )

Twitter picture

You are commenting using your Twitter account. Log Out / Change )

Facebook photo

You are commenting using your Facebook account. Log Out / Change )

Google+ photo

You are commenting using your Google+ account. Log Out / Change )

Connecting to %s