Pokemon Center

By Junichi Masuda

I've seen different versions of this song tabbed for uke around
the internet, I thought I'd tab it in the easiest possible
way to play :)

|-------5-3-2-0-----------2-0-----2-|
|-3---3---------2---2---2-----2-3---|
|---2-----------------2-------------|
|-----------------------------------|

|-------5-3-2-0-----------2-0-------|
|-3---3---------2---2---2-----2-3---|
|---2-----------------2-------------|
|-----------------------------------|

|-2-5-3-5-3-2-0-----0-2-3-2-0-------|
|-----------------2-----------3-----|
|-----------------------------------|
|-----------------------------------|

|-2-5-3-2-3-5-7---5-3-2-3-2-3-2-0---|
|---------------------------------3-|
|-----------------------------------|
|-----------------------------------|



Take On Me Riff

by A-Ha
It's in tune with these chords:

http://www.chordie.com/chord.pere/hem.passagen.se/surftore/text/lyrics/a-ha/take_on_me_pro.txt

but it's easily transposed :)

|-----------------0-0-1-3-1-1-1---------------------|
|-3-3-------1-1-1---------------1---3-3---3-1-1-3-1-|
|-----3-0-0-----------------------3-----------------|
|---------------------------------------------------|

Actual song in key (requires Low-G):
|---------------------0-2-0-0-0---------------------|
|-2-2-------0-0-0-4-4-----------0---2-2---2-0-0-2-0-|
|-----2---------------------------2-----------------|
|-------4-4-----------------------------------------|

Original Song:

Owl Theme from Legend Of Zelda

By Koji Kondo
LOW-G ONLY

|----------|
|----------|
|-2---0-0-2|
|----------|

A|---------------------------3-1-----------------|
E|-------------------1-3---3-----4-3-1-----------|
C|---------------2-3-----0-------------3-2-0-----|
G|-5---4-5---4-5-----------------------------4-0-|

|---------------------------------------------|
|-------------------1-3---1-4-3-1-------------|
|---------------2-3-----0---------3-2-2---0-0-|
|-5---4-5---4-5-------------------------------|

(repeat)

|-1-------1-------1---6-5-3---1---3-----1-----------|
|-----3-4-----3-4---------------------4---4---3---4-|
|---------------------------------------------------|
|---------------------------------------------------|

|---------------------5-3-1-----------1-------------|
|-1-------1-------1-----------4---4-----4-3---1---3-|
|-----2-3-----2-3-----------------------------------|
|---------------------------------------------------|


|-1-------1-------1---6-5-3---1---3-----1-----------|
|-----3-4-----3-4---------------------4---4---3---4-|
|---------------------------------------------------|
|---------------------------------------------------|


|---------------------5-3-1-----------------------|
|-1-------1-------1-----------4---3---1---1-------|
|-----2-3-----2-3-----------------------3-----3-3-|
|-------------------------------------------------|

Original Song:

Wonderful

Chords from the musical "Wicked"
I was struggling to find these chords anywhere,
but I found a youtube tutorial with how to play
it on piano. I listened to it and wrote down each
chord and put it here :)

If you don't know how this song goes, you should
watch the youtube clip below

F
I never asked for this
   F
Or planned it in advance
Dm
I was merely blown here
Gm
By the winds of chance
I never saw myself 
Eb
As a Solomon or Socrates
  C7
I knew who I was:
            D7
One of your dime a dozen
Db        F
Mediocrities

A7
Then suddenly I'm here
			Dm
Respected - worshipped, even
Bbm		 F
Just because the folks in Oz
Bbm		C
Needed someone to believe in
F
Does it surprise you
      Dm		  Bb
I got hooked, and all too soon?
Bb	   Gm
What can I say?
      F       D7
I got carried away
G7		C7
And not just by balloon:

F
Wonderful
		Dm
They called me "Wonderful"
	   Gm			 C
So I said "Wonderful" - if you insist
	   F
I will be "Wonderful"
	       D7
And they said "Wonderful"
   G7			  C
Believe me, it's hard to resist
 C     Bb C7    F
'Cause it feels wonderful
     F		G7
They think I'm wonderful
		Gm	  C7
Hey, look who's wonderful -
		Am
This corn-fed hick
	      Gm	D7
Who said: "It might be keen
	   Am	   D7
To build a town of green
	G		C7	F
And a wonderful road of yellow brick!"

(spoken) Where I'm from, we believe all sorts of
						C7
things that aren't true. We call it - "history."

  F		 A	 Dm	   F
A man's called a traitor - or liberator
  F		D7	   Gm		 A|-5-1-0---|
A rich man's a thief - or philanthropist E|-------3-|
    Gm      D7		Gm	D7
Is one a crusader - or ruthless invader?
     G7           G7
It's all in which label
   C7	    F
Is able to persist

A7
There are precious few at ease
Dm
With moral ambiguities
G7				C7
So we act as though they don't exist

Bb   Bb   C7 F
They call me "Wonderful"
	G7
So I am wonderful
	       G7	     Gm
In fact - it's so much who I am
     C7		Am	D7
It's part of my name
    Gm		  C		 F
And with my help, you can be the same
	      F			Em
At long, long last receive your due
     Dm
Long overdue
	  Dm	  F	    Bb
Don't you know? - The most celebrated
F	Bb
Are the rehabilitated
Ab	             Db
There'll be such a - whoop-de-doo
F	      E
A celebration throughout Oz
       D		A7	Ab
That's all to do - with you

G
Wonderful
		 A
They'll call you wonderful
	      Am	  
Does it sound wonderful?
D7	      Bm    E7
Trust me it's fun

	     Am
When you are wonderful
	    Bm
It would be wonderful?
Am			  G7
When you're the wonderful one?



I got the chords from here:



Gruntilda’s Lair

By Grant Kirkhope
Soprano-Friendly
Low-G preferred, but not compulsory
This is by far one of the catchiest and most memorable
tunes from Banjo-Kazooie. 
Have fun!

Bass:
|-----------------------------------------------|
|-----------------------------------------------|
|-0---3-----3-0---3-----3-0---3-----3-0---3-----|
|-------0-----------0-----------0-----------0---|
(throughout song)


Intro:
|-------------------------------------3-6-5-6-5-|
|-------------------------3-6-5-6-5-------------|
|-------------0-3-2-3-2-------------------------|
|-0-3-2-3-2-------------------------------------|
OR
|-------------------------------------3-6-5-6-5-|
|-----------------------------------------------|
|-0-3-2-3-2---0-3-2-3-2---0-3-2-3-2-------------|
|-----------------------------------------------|

First Half:
|-----------------------------------------|
|-----------------3-4-3-------------------|
|-0---3-2-3-2-0---------0---3-2-3-2-0-----|
|---------------------------------------3-|

|-----------------1-3-1-------------------|
|-----3-1-3-1-----------------3-1-3-1-----|
|-3-----------3-----------3-----------3---|
|-----------------------------------------|


Second Half:
|-----------1-3--5-6--5-4--3-1------0-2-5-|
|-1---4-3-4---------------------4-3-------|
|-----------------------------------------|
|-----------------------------------------|

|---------------------3-------2---2-5-2-5-8-6-5-|
|-4---6-8-6-4-1---3-4---3---3---3---------------|
|-------------------------2---------------------|
|-----------------------------------------------|
OR IF YOU PREFER:
|-----------------------------------5---5-8-6-5-|
|-4---6-8-6-4---------8-------7---7---7---------|
|-------------5---7-8---7---7---7---------------|
|-------------------------7---------------------|


Repeat second half

Then repeat both halves

				       ~ (bend string0
|-3-3-3-3---6-----------3-3-3-3---6----4-|
|-------------6-5-6-5-3-------------6----|
|----------------------------------------|
|----------------------------------------|

|-3-3-3-3---6---------------------------------|
|-------------6-5-6-5-3---1-3-4-3-1-3-2-3-4-3-|
|---------------------------------------------|
|---------------------------------------------|

|-3-3-3-3---6-----------3-3-3-3---6----4-|
|-------------6-5-6-5-3-------------6----|
|----------------------------------------|
|----------------------------------------|

|-3-3-3-3---6---------------------------------|
|-------------6-5-6-5-3---3-4-3-2-------------|
|---------------------------------3-0---1-----|
|---------------------------------------------|

(repeat both halves)

Outro:			(different instuments)
|----------------------|------------------|
|-----------------3-4-3|------------------|
|-0---3-2-3-2-0--------|0---3-2-3-2-0-----|
|----------------------|----------------0-|

|----------------------|------------------|
|-----------------3-4-3|------------------|
|-0---3-2-3-2-0--------|0---3-2-3-2-0-----|
|----------------------|----------------0-|

(pause, with bass in background)

Repeat whole thing forever minus the intro :D


Original Song:

Careless Whisper Riff

By George Michael
LOW-G ONLY
I know there is a tab for this up on ukulele-tabs.com,
but since it's blocked in my country I can't check it
to see if it's identical to mine :( I hope it's not!

|-7-5-0-----7-5-0---------|
|-------1---------1-------|
|-------------------------|
|-------------------------|

|-3-1-------3-1-----------|
|-----1---------1---------|
|-------2---------2-------|
|-------------------------|

|-1-0----------------------|
|-----1--------------------|
|-------2------------------|
|---------3----------------|

|---------------0----------|
|---------0-1-3------------|
|-----0-2------------------|
|-2-3----------------------|

Original Song:

Way Back Into Love

By Off And Uke

A tab of this tutorial:



|-3-----0-2-3-2-0-----3-|
|-0---3-------0---0-3-3-|
|-0-----------0-------0-|
|-0-----------2-------0-|

|---0-2-3-2-0---0-0-----|
|-3-------0---0---1-----|
|---------0-------0-----|
|---------2-------2-----|

|-0-0-0-----2---2-------|
|-------3-1-0---1-------|
|-----------2-0-2-------|
|-----------0---0-------|

|-3-0-0-0-----2---2-------|
|-0-------3-1-0---1-------|
|-0-----------2-0-2-------|
|-0-----------0---0-------|

Original Song: