Gerudo Valley

By Koji Kondo
Why I didn't tab this before I have NO idea!
Gbm is:
2120
My suggestion for the chord E is:
1X02
and my suggestion for the chord Db7 is:
1112

LOW-G ONLY
Seriously guys, you should really give Low-G a try! 
It makes all the difference for a lot of songs. I
don't know why, but SO MANY songs have one of the 
5 extra notes you gain on a low-g, and I swear it
makes the chords sound fuller.
Anyway...

Intro Riff (Shout out to futuregeneration and
KonyHawkProSkater of reddit for the intro riff :D)

A|------------3-6---2-5-8-10
E|--------1-4----------------
C|------2--------------------
G|----0----------------------

ChakkaChakkaChakkaChakka
ChakkaChakkaChakkaChakka
ChakkaChakkaChakkaChakka
ChakkaChakkaChakkaChakka

Gbm D E Db7

|-------0-------0-----------|
|-----4-------4-------------|
|---6-------6---------------|
|-6-------6-----------------|

|-------0-------0-----------|
|-----4-------4-------------|
|---6-------6---------------|
|-7-------7-----------------|

|---------------------------|
|-----2-4-----2-4---2-4-2-1-|
|---4-------4---------------|
|-4-------4-----------------|


|-------0-------0-----------|
|-----4-------4-------------|
|---6-------6---------------|
|-6-------6-----------------|

|-------0-------0-----------|
|-----4-------4-------------|
|---6-------6---------------|
|-7-------7-----------------|

|-------------------0-2-0---|
|-----2-4-----2-4---------4-|
|---4-------4---------------|
|-4-------4-----------------|
	       _
	      / \ Hammer on and off
|---0-----------------------|
|-----4-2---0-020-----------|
|-1-------1-------2---------|
|---------------------------|
	       _
	      / \
|---------------------------|
|---4-2---------------------|
|-------4-2-1-242-1---------|
|-4-------------------------|

	       _
	      / \ 
|---0-----------------------|
|-----4-2---0-020-----------|
|-1-------1-------2---------|
|---------------------------|

Next bar has two versions, pick your favourite :)
Easy Version:
	|---------------------------|
	|-------2-0-----------------|
	|-------------2-1-----------|
	|-2-4-----------------------|
Hard Version:
	|-0-2---9-7---5-4-----------|
	|---------------------------|
	|-------6-4---2-1-----------|
	|-2-4-----------------------|
	       _
	      / \
|---------------------------|
|-5-4-5-4---0---------------|
|---------1---212-----------|
|---------------------------|
	       _
	      / \
|---------------------------|
|-4-2-4-0-------------------|
|---------2-1-242-1---------|
|---------------------------|

|-----0-4-----0-4-----0-5-----0-5-|(Thanks to Iowauke
|-2-4-----2-4-----2-4-----2-4-----| for this block)
|---------------------------------|
|---------------------------------|
                                    
Easy Version:
	|-------------2-4-----------|
	|-------4-2-----------------|
	|-2-4---4-2-----------------|
	|-2-4---------4-6-----------|
Hard Version:
	|-0-2--11-9---2-4-----------|
	|---------------------------|
	|-------8-6-----------------|
	|-2-4---------4-6-----------|

Trumpet:
|-------------0-2-0---------|
|-5-4-5---2-4-------4-5-4-5-|
|---------------------------|
|---------------------------|

|---------------0-----------|
|-4-2-4---0-2-4---4-2-4-2-1-|
|---------------------------|
|---------------------------|


|-------------0-2-0---------|
|-5-4-5---2-4-------4-5-4-5-|
|---------------------------|
|---------------------------|

|-2-0-2---0-2-5-7-4-5-4-5-4-|
|---------------------------|
|---------------------------|
|---------------------------|

Back to guitar
|-------------------0---0---0---0-|
|-2-4-5-4-2-4-5-4-----4-------4---|
|-----------------2-------2-------|
|---------------------------------|

|---2-1-2---2-1-2-5-7-5-4---|
|-0-------0-----------------|
|---------------------------|
|---------------------------|

Repeat forever :D

Original Song:

About these ads

Leave a Reply

Fill in your details below or click an icon to log in:

WordPress.com Logo

You are commenting using your WordPress.com account. Log Out / Change )

Twitter picture

You are commenting using your Twitter account. Log Out / Change )

Facebook photo

You are commenting using your Facebook account. Log Out / Change )

Google+ photo

You are commenting using your Google+ account. Log Out / Change )

Connecting to %s